Sonidox.com
 


Buscador de Traducciones:

A  B  C  D  E  F  G  H  I  J  K  L  M  N  O  P  Q  R  S  T  U  V  W  X  Y  Z  #

Seguinos en Twitter Dale ME GUSTA a nuestra Fanpage

METALLICA
The Day That Never Comes

Para tocar en Guitarra
Acordes (Chords)
Tablaturas (Tab), Partituras

Disco: Death Magnetic
Español Traducción al Español
Videos Videos de la Canción
Guitarra Tócala en Guitarra
Português Tradução em Português


Tuning: E Standard

------12----------12-----------12----------12-----------14----------14--------|
----13---13----13----13-----12----12----12----12-----15----15----15----15-----|
-14---------14-----------12----------12-----------12----------12--------------|
------------------------------------------------------------------------------|
------------------------------------------------------------------------------|
------------------------------------------------------------------------------|
Guitar 1

-------12----------12---------------------------------------------------------|
----13----13----13----13------------------------------------------------------|
-14----------14---------------------------------------------------------------|
------------------------------------------------------------------------------|
------------------------------------------------------------------------------|
------------------------------------------------------------------------------|
Guitar 1 (continued)

------------------------------------------------------------------------------|
------------------------------------------------------------------------------|
-7/9------------7/9-----------------------------------------------------------|
-----7--7/9-5-------7--7/9-7--------------------------------------------------|
------------------------------------------------------------------------------|
------------------------------------------------------------------------------|
Guitar 2 repeat above bar 2x

------------------------------------------------------------------------------|
------------------------------------------------------------------------------|
-7/9-------------------------------------------------------------------4----4-|
-----7--7/9-5--5/7--7/9--9/10\9----5/7--7/9--9/10--10p7--5/7--5h7--5-7----7---|
------------------------------------------------------------------------------|
------------------------------------------------------------------------------|
Guitar 2

------------------------------------------------------------------------------|
-------------------------------------------------------10---------------------|
-5--4-5-7-5--4h5-4---4-5-7--7/9-7-5----7-9-10--9-10-12------------------------|
------------------------------------------------------------------------------|
------------------------------------------------------------------------------|
------------------------------------------------------------------------------|
Guitar 2 (continued)

------------------------------------------------------------------------------|
------------------------------------------------------------------------------|
------------------------------------------------------------------------------|
---------------9--------------------------------------------------------------|
-5-7-8--7-8-10----------------------------------------------------------------|
------------------------------------------------------------------------------|
Guitar 1

------------------------------------------------------------------------------|
-----1---0----------------------------1---0------1-------1----0---------------|
-----------2----0--------0-----0------------2-------------------0-2-----------|
---2-------------------0-----0-------------------------2----------------------|
-0-----0------0------2-----2--------2---2------2-----3------3-----------------|
-------------------3--------------0-------------------------------------------|
repeat above bar 8x

-------------------------------------0----------------------------------------|
-------------------------------------0----------------------------------------|
-------------------------------------1----------------------------------------|
-2------------------------------2----2----5--5---5--5-------------------------|
-0---0-3-0-----5---5--7--5--4---2----2----3--3---3--3-------------------------|
-----------3---3---3--5--3--2---0----0----------------------------------------|
repeat above bar 4x

------------------------------------------------------------------------------|
------------------------------------------------------------------------------|
---------------------0-1------------------------------------------------------|
-------------0-2-3-3-----2----------------------------------------------------|
-------0-2-3------------------------------------------------------------------|
-0-1-4------------------------------------------------------------------------|


------12----------12-----------12----------12-----------14----------14--------|
----13---13----13----13-----12----12----12----12-----15----15----15----15-----|
-14---------14-----------12----------12-----------12----------12--------------|
------------------------------------------------------------------------------|
------------------------------------------------------------------------------|
------------------------------------------------------------------------------|
Guitar 1

-------12----------12---------------------------------------------------------|
----13----13----13----13------------------------------------------------------|
-14----------14---------------------------------------------------------------|
------------------------------------------------------------------------------|
------------------------------------------------------------------------------|
------------------------------------------------------------------------------|
Guitar 1 (continued)

------------------------------------------------------------------------------|
------------------------------------------------------------------------------|
-7/9------------7/9-----------------------------------------------------------|
-----7--7/9-5-------7--7/9-7--------------------------------------------------|
------------------------------------------------------------------------------|
------------------------------------------------------------------------------|
Guitar 2 repeat above bar 2x

------------------------------------------------------------------------------|
------------------------------------------------------------------------------|
------------------------------------------------------------------------------|
-9-7--------------------------------------------------------------------------|
------------------------------------------------------------------------------|
------------------------------------------------------------------------------|
Guitar 2 (continued)

------------------------------------------------------------------------------|
-----1---0----------------------------1---0------1-------1----0---------------|
-----------2----0--------0-----0------------2-------------------0-2-----------|
---2-------------------0-----0-------------------------2----------------------|
-0-----0------0------2-----2--------2---2------2-----3------3-----------------|
-------------------3--------------0-------------------------------------------|
repeat above bar 4x

-------------------------------------0----------------------------------------|
-------------------------------------0----------------------------------------|
-------------------------------------1----------------------------------------|
-2------------------------------2----2----5--5---5--5-------------------------|
-0---0-3-0-----5---5--7--5--4---2----2----3--3---3--3-------------------------|
-----------3---3---3--5--3--2---0----0----------------------------------------|
repeat above bar 4x

------------------------------------------------------------------------------|
------------------------------------------------------------------------------|
---------------------0-1------------------------------------------------------|
-------------0-2-3-3-----2----------------------------------------------------|
-------0-2-3------------------------------------------------------------------|
-0-1-4------------------------------------------------------------------------|


------------------------------------------------------------------------------|
------------------------------------------------------------------------------|
------------------------------------------------------------------------------|
--------------------------------2----------5----------4---------------0-2-3-3-|
-------0-2-3--5----------0-2-3--0----------3----------2---------0-2-3---------|
-0-1-4--------3----0-1-4------------0-1-4------0-1-4------0-1-4---------------|


------------------------------------------------------------------------------|
------------------------------------------------------------------------------|
-0-1--------------------------------------------------------------------------|
------5---2---4---2---5---2---4---2-------------------------------------------|
------3---2---2---2---3---2---2---2-------------------------------------------|
----------0-------0-------0-------0-------------------------------------------|


------------------------------------------------------------------------------|
------------------------------------------------------------------------------|
------------------------------------------------------------------------------|
------------------------------------------------------------------------------|
-7--7---10--7--10----7--7---10--7--10----7--7---10--7--10-----9--8------------|
-0--0----0--0---0----0--0----0--0---0----0--0----0--0---0-----7--6---0-0-0-0--|


------------------------------------------------------------------------------|
------------------------------------------------------------------------------|
------------------------------------------------------------------------------|
------------------------------------------------------------------------------|
------------------------------------------------------------------------------|
-0--3-3-3-2-0--0--------------------------------------------------------------|
repeat above 2 bars 3x

------------------------------------------------------------------------------|
------------------------------------------------------------------------------|
------------------------------------------------------------------------------|
------------------------------------------------------------------------------|
-7--7---10--7--10----7--7---10--7--10----7--7---10--7--10-----9--8------------|
-0--0----0--0---0----0--0----0--0---0----0--0----0--0---0-----7--6---0-0-0-0--|


------------------------------------------------------------------------------|
------------------------------------------------------------------------------|
------------------------------------------------------------------------------|
----------------------------------------------------2--4-----4--6--2--6--7--4-|
-------4--4-----------4--4-----------4--4-----------0--2--6--2--4--0--4--5--2-|
-0-0---2--2---5-2-5---2--2---5-2-5---2--2---5-2-5---------4-------------------|


------------------------------------------------------------------------------|
------------------------------------------------------------------------------|
------------------------------------------------------------------------------|
-7--7--7\---7--7--7\----------------------------------------------------------|
-5--5--5\---5--5--5\----------------------------------------------------------|
------------------------------------------------------------------------------|
"This I Swear..."

------------------------------------------------------------------------------|
------------------------------------------------------------------------------|
---------------------0-1------------------------------------------------------|
-------------0-2-3-3-----2----------------------------------------------------|
-------0-2-3------------------------------------------------------------------|
-0-1-4------------------------------------------------------------------------|
repeat above bar 2x

------------------------------------------------------------------------------|
------------------------------------------------------------------------------|
------------------------------------------------------------------------------|
------------------------------------------------------------------------------|
------------------------------------------------------------------------------|
-0--0-0-0--0-0-0--0-0-0--0-0--0-0-0-0-----------------------------------------|
repeat above bar 2x

------------------------------------------------------------------------------|
------------------------------------------------------------------------------|
------------------------------------------------------------------------------|
-------------------------------------------------------------------1----------|
------------------------------------------------------------------------------|
-0--0-0-0--0-0--1p0---0--0-0-0--0-0--1p0---0--0-0-0--0-0--1p0--0-0------------|


------------------------------------------------------------------------------|
------------------------------------------------------------------------------|
------------------------------------------------------------------------------|
------------------------------------------------------------------------------|
------------------------------------------------------------------------------|
-0--0-0-0--0-0-0--0-0-0--0-0--0-0-0-0-----------------------------------------|
repeat above bar 2x

------------------------------------------------------------------------------|
------------------------------------------------------------------------------|
------------------------------------------------------------------------------|
-------------------------------------------------------------------1----------|
------------------------------------------------------------------------------|
-0--0-0-0--0-0--1p0---0--0-0-0--0-0--1p0---0--0-0-0--0-0--1p0--0-0------------|


------------------------------------------------------------------------------|
------------------------------------------------------------------------------|
------------------------------------------------------------------------------|
------------------------------------------------------------------------------|
------------------------------------------------------------------------------|
-0--0-0-0--0-0-0--0-0-0--0-0--0-0-0-0-----------------------------------------|
repeat above bar 2x

------------------------------------------------------------------------------|
------------------------------------------------------------------------------|
-7/9--9-9-9p7-----7--7-7-7p4-----4--4-4-4p2-----2p0----0----------------------|
--------------9--------------7--------------5-------2----2p0------------------|
------------------------------------------------------------------------------|
------------------------------------------------------------------------------|
Guitar 1

------------------------------------------------------------------------------|
------------------------------------------------------------------------------|
-7/9--9-9-9p7-----7--7-7-7p4-----4--4-4-4p2-----------------------------------|
--------------9--------------7--------------5----7b9-7-5h7-7------------------|
------------------------------------------------------------------------------|
------------------------------------------------------------------------------|
Guitar 1

------------------------------------------------------------------------------|
-7/8--8-8-8p7-----7--7-7-7p5-----5--5-5-5p3-----3p0---------------------------|
--------------9--------------7--------------4-------2---4p2-------------------|
------------------------------------------------------------5-----------------|
------------------------------------------------------------------------------|
------------------------------------------------------------------------------|
Guitar 1

-5/7--7-7-7p5-----5--5-5-5p3-2---3--3-3-3p2-0---0h2p0-------------------------|
--------------8---------------------------------------3---3h5p3-1---1h3p1-0---|
------------------------------------------------------------------------------|
------------------------------------------------------------------------------|
------------------------------------------------------------------------------|
------------------------------------------------------------------------------|
Guitar 1

---------------0---3-3--------------------------------------------------------|
-0h1p0-----0h5---0-----5p0----------------------------------------------------|
-------2----------------------------------------------------------------------|
------------------------------------------------------------------------------|
------------------------------------------------------------------------------|
------------------------------------------------------------------------------|
Guitar 1

------------------------------------------------------------------------------|
-7/8--8-8-8p7-----7--7-7-7p5-----5--5-5-5p3-----3p0---------------------------|
--------------9--------------7--------------4-------2---4p2-------------------|
------------------------------------------------------------5-----------------|
------------------------------------------------------------------------------|
------------------------------------------------------------------------------|
Guitar 2

------------------------------------------------------------------------------|
-7/8--8-8-8p7-----7--7-7-7p5-----5--5-5-5p3-----7b8-7--5h7-7------------------|
--------------9--------------7--------------4---------------------------------|
------------------------------------------------------------------------------|
------------------------------------------------------------------------------|
------------------------------------------------------------------------------|
Guitar 2

-5/7--7-7-7p5-----5--5-5-5p3-2---3--3-3-3p2-0---2p0---------------------------|
--------------8-------------------------------------3--5p3--------------------|
-----------------------------------------------------------4------------------|
------------------------------------------------------------------------------|
------------------------------------------------------------------------------|
------------------------------------------------------------------------------|
Guitar 2

-13/15--15-15-15p14-12---14--14-14-14p12------12--12-12-12\10------8h10p8-7---|
-----------------------------------------15-------------------12--------------|
------------------------------------------------------------------------------|
------------------------------------------------------------------------------|
------------------------------------------------------------------------------|
------------------------------------------------------------------------------|
Guitar 2

-7h8p7-5---5h7p5-3---3h5p3-2---------0-7-7------------------------------------|
-------------------------------5h7-7-------8----------------------------------|
------------------------------------------------------------------------------|
------------------------------------------------------------------------------|
------------------------------------------------------------------------------|
------------------------------------------------------------------------------|
Guitar 2

------------------------------------------------------------------------------|
------------------------------------------------------------------------------|
------------------------------------------------------------------------------|
-5---2---4---2---5---2---4---2------------------------------------------------|
-3---2---2---2---3---2---2---2------------------------------------------------|
-----0-------0-------0-------0------------------------------------------------|


------------------------------------------------------------------------------|
------------------------------------------------------------------------------|
------------------------------------------------------------------------------|
------------------------------------------------------------------------------|
------------------------------------------------------------------------------|
-0h5h8-0h5h8-0h5h8-0h5h8-0h5h8-0h5h8-0h5h8-0h5h8-0h5h7-0h5h7-0h5h7-0h5h7------|
Guitar 1

------------------------------------------------------------------------------|
------------------------------------------------------------------------------|
------------------------------------------------------------------------------|
------------------------------------------------------------------------------|
------------------------------------------------------------------------------|
-0h4h7-0h4h7--0---------------------------------------------------------------|
Guitar 1 repeat above 2 bars 4x

-0h5h8-0h5h8-0h5h8-0h5h8-0h5h8-0h5h8-0h5h8-0h5h8-0h5h7-0h5h7-0h5h7-0h5h7------|
------------------------------------------------------------------------------|
------------------------------------------------------------------------------|
------------------------------------------------------------------------------|
------------------------------------------------------------------------------|
------------------------------------------------------------------------------|
Guitar 2

-0h4h7-0h4h7--0---------------------------------------------------------------|
------------------------------------------------------------------------------|
------------------------------------------------------------------------------|
------------------------------------------------------------------------------|
------------------------------------------------------------------------------|
------------------------------------------------------------------------------|
Guitar 2

------------------------------------------------------------------------------|
------------------------------------------------------------------------------|
------------------------------------------------------------------------------|
-5---2---4--------------------------------------------------------------------|
-3---2---2--------------------------------------------------------------------|
-----0------------------------------------------------------------------------|


---------3-3-0----------------------------------------------------------------|
-0h5-5-0----------------------------------------------------------------------|
------------------------------------------------------------------------------|
------------------------------------------------------------------------------|
------------------------------------------------------------------------------|
------------------------------------------------------------------------------|
Guitar 1

-------0-7-7------------------------------------------------------------------|
-5h8-8-------8----------------------------------------------------------------|
------------------------------------------------------------------------------|
------------------------------------------------------------------------------|
------------------------------------------------------------------------------|
------------------------------------------------------------------------------|
Guitar 2

------------------------------------------------------------------------------|
------------------------------------------------------------------------------|
------------------------------------------------------------------------------|
-2----------------------------------------------------------------------------|
-2----------------------------------------------------------------------------|
-0----------------------------------------------------------------------------|


------------------------------------------------------------------------------|
------------------------------------------------------------------------------|
----------------------------------7-------------------------------------------|
-------------------------2--4--7--5--7/9--7-----------------------------------|
-9--7--5--2--9--7--5--2--0--2--5-----5/7--5--7/9--7---------------------------|
-7--5--3--0--7--5--3--0----------------------5/7--5---------------------------|


------------------------------------------------------------------------------|
------------------------------------------------------------------------------|
----------------------------------7-------------------------------------------|
-------------------------2--4--7--5---------4---------------------------------|
-9--7--5--2--9--7--5--2--0--2--5------2--5--2--5------------------------------|
-7--5--3--0--7--5--3--0---------------0--3-----3------------------------------|
repeat above 2 bars 2x

------------------------------------------------------------------------------|
------------------------------------------------------------------------------|
------------------------------------------------------------------------------|
-4----------------------------------------------------------------------------|
-2--2-2-2-2-2-2-2-2-2-2-2-2-2-2-2-2-2-2-2-2-2-2-2-2-2-2-2-2-2-2-2-2-2-2-2-2-2-|
------------------------------------------------------------------------------|
solo rhythm

------------------------------------------------------------------------------|
------------------------------------------------------------------------------|
------------------------------------------------------------------------------|
------------------------------------------------------------------------------|
-2-2-2-2-2-2-2-2-2-2-2-2-2-2-2-2-2-2-2-2-2-2-2-2-2----------------------------|
----------------------------------------------------0-0-0-0-0-0-0-0-0-0-0-0---|


------------------------------------------------------------------------------|
------------------------------------------------------------------------------|
------------------------------------------------------------------------------|
------------------------------------------------------------------------------|
------------------------------------------------------------------------------|
-0-0-0-0-0-0-0-0-0-0-0-0-0-0-0-0-0-0-0-0-0-0-0-0-0-0-0-0-0-0-0-0-0-0-0-0-0-0--|


------------------------------------------------------------------------------|
------------------------------------------------------------------------------|
------------------------------------------------------------------------------|
------------------------------------------------------------------------------|
-----------------------------0-0-0-0-0-0-0-0-0-0-0-0-0-0-0-0-0-0-0-0-0-0-0-0--|
-0-0-0-0-0-0-0-0-0-0-0-0-0-0--------------------------------------------------|


------------------------------------------------------------------------------|
------------------------------------------------------------------------------|
------------------------------------------------------------------------------|
-2--3--4----------------------------------------------------------------------|
-0--1--2--2-2-2-2-2-2-2-2-2-2-2-2-2-2---------------------------------0-0-0-0-|
--------------------------------------3-3-3-3-3-3-3-3-3-3-3-3-3-3-3-3---------|


------------------------------------------------------------------------------|
------------------------------------------------------------------------------|
------------------------------------------------------------------------------|
------------------------------------------------------------------------------|
-0-0-0-0-0-0-0-0-0-0-0-0---------------------------------2-2-2-2-2-2-2-2-2-2--|
-------------------------2-2-2-2-2-2-2-2-2-2-2-2-2-2-2-2----------------------|


------------------------------------------------------------------------------|
------------------------------------------------------------------------------|
------------------------------------------------------------------------------|
------------------------------------------------------------------------------|
-2-2-2-2-2-2---------------------------------0-0-0-0-0-0-0-0-0-0-0-0-0-0-0-0--|
-------------3-3-3-3-3-3-3-3-3-3-3-3-3-3-3-3----------------------------------|


------------------------------------------------------------------------------|
------------------------------------------------------------------------------|
------------------------------------------------------------------------------|
------------------------------------------------------------------------------|
------------------------------------------------------------------------------|
-2-2-2-2-2-2-2-2-2-2-2-2-2-2-2-2-0-0-0-0-0-0-0-0-0-0-0-0-0-0-0-0-0-0-0-0-0-0--|


------------------------------------------------------------------------------|
------------------------------------------------------------------------------|
------------------------------------------------------------------------------|
------------------------------------------------------------------------------|
------------------------------------------------------------------------------|
-0-0-0-0-0-0-0-0-0-0-0-0-0-0-0-0-0-0-0-0-0-0-0-0-0-0-0-0-0-0-0-0-0-0-0-0-0-0--|


------------------------------------------------------------------------------|
------------------------------------------------------------------------------|
------------------------------------------------------------------------------|
------------------------------------------------------------------------------|
------------------------------------------------------------------------------|
-0-0-0-0----------------------------------------------------------------------|


------------------------------------------------------------------------------|
------------------------------------------------------------------------------|
------------------------------------------------------------------------------|
------------------------------------------------------------------------------|
------------------------------------------------------------------------------|
-0h5h8-0h5h8-0h5h8-0h5h8-0h5h8-0h5h8-0h5h8-0h5h8-0h5h7-0h5h7-0h5h7-0h5h7------|
Guitar 1

------------------------------------------------------------------------------|
------------------------------------------------------------------------------|
------------------------------------------------------------------------------|
------------------------------------------------------------------------------|
------------------------------------------------------------------------------|
-0h4h7-0h4h7--0---------------------------------------------------------------|
Guitar 1 repeat above 2 bars 4x

-0h5h8-0h5h8-0h5h8-0h5h8-0h5h8-0h5h8-0h5h8-0h5h8-0h5h7-0h5h7-0h5h7-0h5h7------|
------------------------------------------------------------------------------|
------------------------------------------------------------------------------|
------------------------------------------------------------------------------|
------------------------------------------------------------------------------|
------------------------------------------------------------------------------|
Guitar 2

-0h4h7-0h4h7--0---------------------------------------------------------------|
------------------------------------------------------------------------------|
------------------------------------------------------------------------------|
------------------------------------------------------------------------------|
------------------------------------------------------------------------------|
------------------------------------------------------------------------------|
Guitar 2

------------------------------------------------------------------------------|
------------------------------------------------------------------------------|
------------------------------------------------------------------------------|
-5---2---4---2---5---2---4---------------------5---2---4----------------------|
-3---2---2---2---3---2---2---------------------3---2---2----------------------|
-----0-------0-------0-------3-2-0-0-3-2-0-0-------0-------3-2-0-0-3-2-0-0----|


------------------------------------------------------------------------------|
------------------------------------------------------------------------------|
-------5--4-------------------5--4--------------------------------------------|
-5--4--3--2---------2---5--4--3--2---------2---7------------------------------|
-3--2--------5--4---2---3--2--------5--4---2---5---4----5--4--3--5--4--3------|
-------------3--2---0---------------3--2---0---5---2----5--4--3--5--4--3------|


------------------------------------------------------------------------------|
------------------------------------------------------------------------------|
-----------------------------------5--4---------------------------------------|
-7---------------------------5--4--3--2--------2------------------------------|
-5---4---5--4--3--5--4--3----3--2--------5--4--2------------------------------|
-5---2---5--4--3--5--4--3----------------3--2--0------------------------------|


------------------------------------------------------------------------------|
------------------------------------------------------------------------------|
------------------------------------------------------------------------------|
------------------------------------------------------------------------------|
------------------------------------------------------------------------------|
-0h5h8-0h5h8-0h5h8-0h5h8-0h5h8-0h5h8-0h5h8-0h5h8-0h5h7-0h5h7-0h5h7-0h5h7------|
Guitar 1

-0h5h8-0h5h8-0h5h8-0h5h8-0h5h8-0h5h8-0h5h8-0h5h8-0h5h7-0h5h7-0h5h7-0h5h7------|
------------------------------------------------------------------------------|
------------------------------------------------------------------------------|
------------------------------------------------------------------------------|
------------------------------------------------------------------------------|
------------------------------------------------------------------------------|
Guitar 2

------------------------------------------------------------------------------|
------------------------------------------------------------------------------|
------------------------------------------------------------------------------|
------------------------------------------------------------------------------|
-8--8--8--8--8--8--7----------------------------------------------------------|
-8--8--8--8--8--8--7----------------------------------------------------------|

Volver a Home ˆ Ir hasta Arriba ˆ

Todas las canciones, letras y videos son propiedad de sus autores.
Las traducciones y el resto son adaptaciones e interpretaciones con el fin de darlos a conocer a la gente.
El contenido del sitio es meramente informativo - "SI a la Música, NO a la Piratería"
© 2008 SonidoX