Sonidox.com
 


Buscador de Traducciones:

A  B  C  D  E  F  G  H  I  J  K  L  M  N  O  P  Q  R  S  T  U  V  W  X  Y  Z  #

Seguinos en Twitter Dale ME GUSTA a nuestra Fanpage



Intro/Verse

E---------------------------|l
B---------------------------|l
G------9-----6----6----6----|l
D--------------------------|l
A---7 7---4 4---------------|l
E--------------5 5---5 5----|l


Chorus

E---------------------------------------------------|l
B---------------------------------------------------|l
G---9-9-----------------------9-9-------------------|l
D---9-9--11-11--7-7---7-7-----9-9--11-11---7-7-7-6-6|l
A---7-7--11-11--7-7---7-7-----7-7--11-11---7-7-7-6-4|l
E---------9-9---5-5---5-5-----------9--9---5-5-5-4-2|l


Prechorus
Strum only when Tyson say "Truth Be Told"

E 7 7
B 7 7
G 8 8
D 9 9
A 9 9
E 7 7

Solo - only played on the High E and B strings.

E ---9-7-4-5-4-2-----9-7-4-5-4-2-7---9-7---|l
B ---------------1-------------------------|l


Bridge

I haven't figured out the bridge yet but if you can figure it out, please let me know so
can add it to the tab.

In case you were wondering, the tab for the part at the end of the first chorus is:

E ----------------|l
B ----------------|l
G-----------------|l
D ----------------|l
A ---0------------|l
E -----4--2--0----|l

Here is the order its played in

Intro/Verse X 12
Prechorus X 1
Chorus X 2
Solo X 1
Intro/Verse X 2
Prechorus X 1
Chrous X 2
Bridge X 2 but haven't figured it out yet.
Break in the song for the chant of the chorus - just drums play.
Chorus X 3

Volver a Home ˆ Ir hasta Arriba ˆ

Todas las canciones, letras y videos son propiedad de sus autores.
Las traducciones y el resto son adaptaciones e interpretaciones con el fin de darlos a conocer a la gente.
El contenido del sitio es meramente informativo - "SI a la Música, NO a la Piratería"
© 2008 SonidoX